-
- » MUSIC » » Honeyed And Killed

2011

LP
-
After “Noise Hit World” and “Blue Daydreaming”, it was time for Hedgehog to say goodbye to youth. The title of the album Honeyed And Killed sums up ( ↓ See All)
After “Noise Hit World” and “Blue Daydreaming”, it was time for Hedgehog to say goodbye to youth. The title of the album Honeyed And Killed sums up the album’s concept. All the songs are about love and death, drugs and politics, credibility and integrity, and the lack of value and respect in China. The result is a big contrast between dreams and reality. Covering the meaning of life, youth, love and death. Tracks that really encapsulate the albums feeling and message are "Kill Your Age" "Honeyed And Killed" "Paper Airplane" "Wet White Doll" “Sparklehorse” and " The End"
( ↑ Wrap)

「Honeyed And Killed」

甜蜜与杀害

Modern Sky | ISRC:CNA651131300
- 6 Songs
  • 01. Buried In The Sun
    埋葬在阳光下 2:29 ˪ᵧᵣᶜ
    [Buried In The Sun]
    🦔⊿📄
    🎸 +0 E⁶A⁵D⁴G³B²E¹
    
    
    
            
    
        
  • 02. s Kill Your Age
    杀死你的时代 5:30 ˪ᵧᵣᶜ
    [Kill Your Age]
    嘿
    那个冰冷的黑夜里
    有我们未知的事件
    铁轮驶过长街
    残存红色的记忆碎片
    嘿
    他说:你快别
    时代早已瞬息万变
    历史也许会重演
    但青年绝不会再被歼灭
    
    膨胀的娱乐的世界
    狡猾诡辩的人间
    我早已厌倦
    这时代赐予我的一切
    嘿
    他说:你快别
    一切早已瞬息万变
    历史不会再重演
    但青年正在杀死周遭的青年
    
    tender flowers grow in the shade
    娇嫩的花朵在阴影中成长
    tiny neck , big brain
    细细的茎,大大的头
    if you really hate
    如果你真的恨
    kill your age
    杀死你的时代
    
    tender boys grow in the shade
    娇嫩的孩子在阴影里成长
    tiny neck , big brain
    细细的脖子,大大的脑袋
    if you really hate
    如果你真的恨
    kill your age
    杀死你的时代
    
    在对这世界认知形成前已被包围
    真实勒死于襁褓前莫须有的所谓
    如果你真的恨那日夜闪耀的光辉
    杀或被杀死在这时代源头的虚伪
     
    感知的萌芽在强暴中的本能崩溃
    简单的世界被灌以复杂蝶效原为
    如果你真的恨头顶那耀眼的光辉
    杀或被杀死在这时代源头的善伪
    ᵀᵃᵇ
    [Kill Your Age]
    🦔⊿📄
    🎸 +0 EBGDAE
    4/4 key=F
    Guitar Chord
     Intro 
    E----------------------------------------------------------------
    B----------------------------------------------------------------
    A--------------------0--------------------------------------------
    D---------0--------------0-----------------------------------------
    A-----1--------1------------1-------------------------------------
    E--3--------------------------------------------------------------
     Verse 
    E----------------------------------------------------------------
    B----------------------------------------------------------------
    A----------------------------------------------------------------
    D---------0---------------------0------------(x3)---C---D----------------
    A-----1--------------------0-------------------------------------
    E--3----------3---------1----------1---------------------------------
     Chorus 
    G F x3 C D 
    
    
    |
  • 03. Sparklehorse
    闪马 4:59 ˪ᵧᵣᶜ
    [Sparklehorse]
    新的一天已开始
    让我们快乐一点好吗
    不要总愁眉苦脸的思考你的明天
    尽管这是个悲伤而又美丽的世界
    快乐的奔跑的小马
    它闪烁着出现
    
    来,靠近我一些
    说,甜蜜的语言
    快,再靠近一点
    说,我们的明天
    
    a horse takes his own way
    the horse has took his own way
    every horse has his own way
    oh my horse please take your way
    ᵀᵃᵇ
    [Sparklehorse]
    🦔⊿📄
    🎸 +0 EBGDAE
    
    4/4 key=G
    Guitar Chord
     Verse :G Em
    桥:D Em
    E-----------------------0--------------------------------------0-------
    B------0--3----3-0---0------------------------0----------0----0----------------------
    A---2------------------0-----(x4)-------0-2--------0^2-----------------------------
    D--------------------------------------2------------------------------2--------------
    A----------------------------------------------------------------------------------
    E---------------------------------------------------------------- 
    
    #striptags#
    4/4 key=G
    Guitar Chord
     Verse :G Em
    桥:D Em
    E-----------------------0--------------------------------------0-------
    B------0--3----3-0---0------------------------0----------0----0----------------------
    A---2------------------0-----(x4)-------0-2--------0^2-----------------------------
    D--------------------------------------2------------------------------2--------------
    A----------------------------------------------------------------------------------
    E---------------------------------------------------------------- 
    
    #/striptags#
  • 04. Hello Candy
    你好,糖果 4:43 ˪ᵧᵣᶜ
    [Hello Candy]
    你好甜心,我爱你
    现在我只想抱着你
    听你在我怀里呼吸
    我们就这样死去
    
    外面的世界不属于你
    你的内心一片纯净
    我要永远保护着你
    从此不再有人会伤害你
    
    这城市赐予我只有你
    我早已看不清自己
    当混沌的城市愈发空虚
    让我们手牵手一起逃离
    
    离开,或者继续
    背叛,或者忍受着活下去
    [Hello Candy]
    🦔⊿📄
    🎸 +0 EBGDAE
    
    
    
            
    
        
  • 05. s The End
    最后,我们会一起去海边 6:13 ˪ᵧᵣᶜ
    [The End]
    去海边
    当我感到迷惘/失望/看到希望
    那里有海浪
    那里有我的梦想
    听海浪
    拍打在岩石上
    所有的过往
    淡没在沙滩上
    
    当我们踏着海浪
    微笑着谈论死亡
    明天是怎样
    我们再也不愿去想
    永远年轻
    永远热泪盈眶
    最后的乐章
    让我们一起歌唱
    ᵀᵃᵇ
    [The End]
    🦔⊿📄
    🎸 +0 EBGDAE
    4/4 key=A
    Guitar Chord
     Verse :#Fm E
     Chorus :A E #Fm D
     Intro SOLO
    E---------------------------------------------------------------------
    B--------------------------------------------------------------------------------------
    A-----------6-------------------6-----------------6-----------------------------------
    D--4-6-7-----4-6---6-4-6-7----6-----4-6-7-----4-6--6-4-6-4--2-4-6---------
    A----------------------------------------------------------------------------------
    E----------------------------------------------------------------
    
    
    #striptags#
    4/4 key=A
    Guitar Chord
     Verse :#Fm E
     Chorus :A E #Fm D
     Intro SOLO
    E---------------------------------------------------------------------
    B--------------------------------------------------------------------------------------
    A-----------6-------------------6-----------------6-----------------------------------
    D--4-6-7-----4-6---6-4-6-7----6-----4-6-7-----4-6--6-4-6-4--2-4-6---------
    A----------------------------------------------------------------------------------
    E----------------------------------------------------------------
    
    
    #/striptags#
  • 06. Life Means
    生命意味 3:58 ˪ᵧᵣᶜ
    [Life Means]
    she dreamed to be happy everyday at the begin
    最初她梦想着快乐的生活
    he sought a pretty friend to stay with
    他寻找一个漂亮的朋友
    she missed him everyday then met him again and again
    她对他日思夜想频繁约会
    with honey without money
    幸福,没有金钱
    
    she felt that is the happyness when they lay under the moon
    当她和他在月光下躺着的时候她感到这就是幸福
    he really enjoyed himself but she didn't belong to him
    他真的十分享受可是她并不属于他
    she had a good night and showed her nice body
    她度过了美好的夜晚并展示了她漂亮的身材
    with happy without money
    快乐,没有金钱
    
    now he can buy anything and he can make the others surprise
    现在他可以买任何东西并且让所有人感到惊奇
    he can share his pain or say that he wanna die
    他可以分享他的痛苦或者说他想去死
    you can die , you should die or make someone else die
    你可以死,你该死,或者你让别人去死
    with money with happy
    金钱,快乐
    
    everybody treats him like a president
    每个人都把他当成总统一样侍奉
    everybody gives him a smile
    每个人都对他面带微笑
    then someday he will kill himself to prove a thing
    某天他杀死了自己去证明一件事
    with money without anything
    金钱,失去一切
    ᵀᵃᵇ
    [Life Means]
    🦔⊿📄
    🎸 +0 EBGDAE
    
    4/4 key=G
    Guitar Chord
     Verse  Chorus :C G
    
    #striptags#
    4/4 key=G
    Guitar Chord
     Verse  Chorus :C G
    
    #/striptags#
  • TIP: Copy the text below to download software such as XunLei and add a new download task to start downloading tracks for good reasons

    |   27'52'' ⊙♩►
    6 tracks, 27'52''(1672s) in total.

    HEDGEHOG = RockZO (Guitar/Vocal) + Atom(Drum/Vocal) + Fun(Bass) | 刺猬 = 子健(吉他、唱)+阿童木(鼓、唱)+何一帆(贝斯)

    All Songs Written By: RockZO 所有词曲:子健

    The copyright in this sound recording is owned by Modern Sky © All rights reserved. Unauthorized duplication is a violation of applicable laws. 本作品声明著作权保护,未经授权,不得使用(包括不得使用其制作影像及录音制品),违者必究。









    More LP, ♪♪♪... back to MUSIC



    -
     
    中文