-
- » MUSIC » TAB♪

Introduction

1 = C (root note)
120 bpm (bit per minute)
4/4
--------------------------------------------
♩= (1/4bar note) = 1bit
♪ = 1/2♩(1/8bar note) = 1/2bit
♫ = 2 x 1/2♩=1bit
-/↓/↑ = 1/2♩(1/8bar note) = 1/2bit
♬ = 2 x 1/2 ♪ (1/16bar note) = 1/2bit
| = bar line  
Number = Guitar Pad Position = ♪
(when without appendix mark 
default value = 1/2bit) 
-------------------------------------------
  Guitar Notes
Note(string)
E(1):  Am #Fm.. (#up key)
B(2):   2(note pos)    ↓↑↓(swap)
G(3):  /(slide up) (slide down) 
D(4):  ^(link)  ~viberate  
A(5): [artificial hamonic]  
E(6): ||: loop :||

#Cm7 [005555] 
 Chord [6-1 Str.Pos]  
1.
Space Gun Boy
太空枪男孩
(09'16'')
140bpm
1=G, ♩=140, 4/4 
☀Guitar Chord
Verse:
E: 
B:  
G: 
D: 
A: 
E: ||:2^3 3 2 1 1 2 3 :||

Chorus:
E: 
B:  
G: 
D: 
A: 
E: /15 15 15 15 15 15 15 15 15 x4
  


#striptags#
1=G, ♩=140, 4/4 
☀Guitar Chord
Verse:
E: 
B:  
G: 
D: 
A: 
E: ||:2^3 3 2 1 1 2 3 :||

Chorus:
E: 
B:  
G: 
D: 
A: 
E: /15 15 15 15 15 15 15 15 15 x4
  


#/striptags#
2.
Orange
橙色
(02'57'')
140bpm
4/4 key=G
Guitar Chord
 Verse  Chorus :D G 

#striptags#
4/4 key=G
Guitar Chord
 Verse  Chorus :D G 

#/striptags#
3.
The End
最后,我们会一起去海边
(06'13'')
140bpm
4/4 key=A
Guitar Chord
 Verse :#Fm E
 Chorus :A E #Fm D
 Intro SOLO
E---------------------------------------------------------------------
B--------------------------------------------------------------------------------------
A-----------6-------------------6-----------------6-----------------------------------
D--4-6-7-----4-6---6-4-6-7----6-----4-6-7-----4-6--6-4-6-4--2-4-6---------
A----------------------------------------------------------------------------------
E----------------------------------------------------------------


#striptags#
4/4 key=A
Guitar Chord
 Verse :#Fm E
 Chorus :A E #Fm D
 Intro SOLO
E---------------------------------------------------------------------
B--------------------------------------------------------------------------------------
A-----------6-------------------6-----------------6-----------------------------------
D--4-6-7-----4-6---6-4-6-7----6-----4-6-7-----4-6--6-4-6-4--2-4-6---------
A----------------------------------------------------------------------------------
E----------------------------------------------------------------


#/striptags#
4.
Life Means
生命意味
(03'58'')
140bpm
4/4 key=G
Guitar Chord
 Verse  Chorus :C G

#striptags#
4/4 key=G
Guitar Chord
 Verse  Chorus :C G

#/striptags#
5.
Kill Your Age
杀死你的时代
(05'30'')
140bpm
4/4 key=F
Guitar Chord
 Intro 
E----------------------------------------------------------------
B----------------------------------------------------------------
A--------------------0--------------------------------------------
D---------0--------------0-----------------------------------------
A-----1--------1------------1-------------------------------------
E--3--------------------------------------------------------------
 Verse 
E----------------------------------------------------------------
B----------------------------------------------------------------
A----------------------------------------------------------------
D---------0---------------------0------------(x3)---C---D----------------
A-----1--------------------0-------------------------------------
E--3----------3---------1----------1---------------------------------
 Chorus 
G F x3 C D
6.
Honeyed And Killed
蜜杀
(04'30'')
140bpm
4/4 key=D
Guitar Chord
 Verse  Chorus :D A
 Intro 
E-----------------------0----------------------------------------
B------------10-----------10--------------------------------0--------
A-------11-------11-------------(x2)----------10---------------10-----(x2)--
D-------0---------------------------------12---------12--------------
A------------------------------------------0-------------------
E----------------------------------------------------------------

SOLO
E---------------------------------------------------------------
B------------9--11--14--11-11-11-9-9-11--14-14-------------------------
A-------11--------------------------------------------------9-11/14-11----------------------------
D-------0---------------------------------------------------------------0---------------------
A-------------------------------------------------------------
E----------------------------------------------------------------
7.
Sparklehorse
闪马
(04'59'')
140bpm
4/4 key=G
Guitar Chord
 Verse :G Em
桥:D Em
E-----------------------0--------------------------------------0-------
B------0--3----3-0---0------------------------0----------0----0----------------------
A---2------------------0-----(x4)-------0-2--------0^2-----------------------------
D--------------------------------------2------------------------------2--------------
A----------------------------------------------------------------------------------
E---------------------------------------------------------------- 

#striptags#
4/4 key=G
Guitar Chord
 Verse :G Em
桥:D Em
E-----------------------0--------------------------------------0-------
B------0--3----3-0---0------------------------0----------0----0----------------------
A---2------------------0-----(x4)-------0-2--------0^2-----------------------------
D--------------------------------------2------------------------------2--------------
A----------------------------------------------------------------------------------
E---------------------------------------------------------------- 

#/striptags#
8.
Paper Airplane
纸飞机
(03'43'')
140bpm
4/4 key=C
Guitar Chord
 Verse  Chorus :Am C F Em
 Intro SOLO
E--------------3-0---------0---3-0-----------------------------------------
B---------------------1-3------------1---1-3-0---------------------------------
A--0-2--0-2--------------------------------------0--------------------------
D----------------------------------------------------------------------------------
A----------------------------------------------------------------------------------
E----------------------------------------------------------------
9.
Pseudomorph
假象
(03'05'')
140bpm
-4/4-Key=C/G
Guitar Chord
 Intro :
E---
B---
G---
D-----------------------------------------5-7-7
A------------–3-3-5-5-6-7-7-7-7-7-7-------6-6-5-5-3-3
E---3-3-5-5---------------------------------------------------5-5-5-5-5-5-5-5

唱前:
E---
B--------------------------------–8------
G---–8/98/98/98/98-(x4)------9–9–5-7-8/9-
D----0-~~~~~~~~~~~~~~~ 
A---
E---
-
唱:
E---
B------
G----9-~~~~~~–8-9~~~~~~
D---0~~~~~~~~~~~~~~~~~~~~
A---
E---

 Bridge Part :
E----
B----8-8-8-10-10–8-8-8-12-12–8-8-8-10-10
G----9-9-9-9–9---9-9-9-12-12–9-9-9-9–9–
D---------------------–12-12------------–10^-10^-10^–
A------------------------------------------10^-10^-10^–
E------------------------------------------8^–8^---8^–

SOLO---一把攥
10.
Tree
(02'59'')
140bpm
Key=D
String Notes(1-6): EBGDAD

Guitar Chord
Intro  / BridgePart 
E---
B---
G------14–--14-16-16–14--–14-------14------14-16-16-14-16-14---
D--------–16-------------–16---------------16-------------- 
A---0-~~~~~~~~~~~~~~~~~0~~~~~~~~~~-
D---0-~~~~~~~~~~~~~~~~~0~~~~~~~~~~

Verse: | D | Bm | A | D |
Chorus: | D | D | A | G |(听~这声音..)
11.
Tell Them I Love You
告诉他们我爱你
(03'12'')
140bpm
-4/4-Key=A
Guitar Chord
 From Start 2 End :A-E
12.
Fat Girl Thinks
胖女孩想
(05'03'')
140bpm
Guitar Chord
 Verse :G Em
 Chorus :| D | C | C |C | Am | Am | D
13.
24 Hours Rock Party
二十四小时摇滚聚会
(04'48'')
140bpm
-4/4-Key=G
Guitar Chord
 From Start 2 End :Em-C-G-D

SOLO
E--0---------0-0-----------------------------2------------
B-----0---0-------0----0--3-0---0-3-3-0----0----------------------
G-------0------------0----------2-----------------2------------------------------------
D------------------------------------------------------
A------------------------------------------------------
E------------------------------------------------------

SOLO 2
E---------------------------------------------------
B--5-3----3-5--5-5-3------3-5--5--5-3----3----3----7-7-7-7-8-8-8------(x2)---------
G-------0-----------------0-----------------0----0----0---------
D------------------------------------------------------
A------------------------------------------------------
E------------------------------------------------------

E---------------------------------------------------
B----------------------------------------------------
G-----4-2------------------4-2-----------------------------
D--2-------0--------------------0-2-0--4-4-5-5------------------
A--------------3--3-5--2----------------------------------
E------------------------------------------------------

电子:
E( GUITAR 6 String  BASS 4 String )---0-12-0-12-12-0-12-0-0-12-12-10-
14.
Waiting For The Last Bus
最后一班车
(05'22'')
140bpm
4/4-Key=D
Guitar Chord
 Verse : 
E----0-------------------0-----------------0---
B----3------------–-----3-----------------3----
G----2------2^4--------2–---------------2----
D----0------------4-----0------2---4-----0----
A----
E----
|    D                      |   D                   | D 

 Chorus :
        | Em        | G   |
(晚风吹~~~~~~拂)
-
15.
Golden Age, Infinite Sadness
金色年华,无限伤感。
(04'12'')
140bpm
-4/4-Key=F
Guitar Chord
 From Start 2 End :F-Am-Dm-C
 Intro SOLO---
E---
B--------1---3-1-
G----–2-------------0–2-0~~~-2-0-2-0
D---3----–2----–0--------------------------2
A---
E---
16.
Love Past
爱之过往
(03'05'')
140bpm
-4/4-Key=F-C
 
 Intro :
Guitar Chord
E---
B---
G---
D----3-0-3-5-3-0-5-7-5-3-0-3-0-0-3-5-3-0-7-7-5-3-0-3-
A---
E---

 Verse :F-D
 Bridge Part :F-G
 Chorus :C-Am
17.
Film
电影
(06'27'')
140bpm
KEY=C, BMP=120
吉他和弦
前/ 桥段 :| #Fm | A | x3 | E | A |
唱:| #Fm | A | x7 | E | A |
18.
Christmas Ends
圣诞最后
(05'14'')
140bpm
-3/4-Key=G
Guitar Chord
 Verse :G-Bm-(x3)-E-D
 Chorus :C-G-Am-Em
19.
Blue Daydreaming
白日梦 蓝。
(04'56'')
140bpm
KEY=Bm, BMP=140
 
Verse / Chorus :Bm-G-D-Em
Bridge Part (头上蓝色时光流淌…):Em-D-(x2)
Middle Solo和 String 进行----Bm-A-(x4)-G-Bm-G-#F


Intro Solo :
Guitar Chord
E------------------------2
B------–0-~~~-----0
G------0----------0
D----2----------4
A---
E---

E---–2---------2-0-------------2-----–0----------0–0-0-0
B---0---3-0-3-----–3----0-3-------------3-0-3------------3-3
G----------------------–2------------0---
D----
A---
E---

E---–2------–2-3----3--3-2-0------0---0---0----2--2-0
B---0---0^3-------0------------3------3---3---3------------3-2
G---
D---
A---
E---
20.
In Spring
春天来了
(05'30'')
140bpm
-Key=A
 From Start 2 End :A-(x2)-#Fm-E-
 

 GUITAR 反复solo :
Guitar Chord
E---
B---
G----
D---–2---2---–2-4-4-2-2
A---0---4---4-0---------------4-4-2-4---–2-4-4-2-0
E-------------------------0-2------------0-0
21.
Noise Hit World
噪音袭击世界
(02'38'')
140bpm
-2/4-Key=E
吉他和弦
 前奏 :
E: 
B:  
G: 
D: -------------–7-7
A: ----5-7-5--7-----7-7-7-7-5-5\2-2/-5-5
E:
           |        E                         |B       D|
唱:
E: 
B:  
G: 
D:--------0---0^2-2-2-2-2-0-------0-0- 
A:----0-2-----------------------2-2
E: 
 |                     E                |B      D|
23.
Paper Age (Bonus Track)
白纸年华
(03'57'')
140bpm
4/4-Key=C
Guitar Chord
 Verse :|C G |F – |
 Bridge Part :|Am G|(也许我的青春就这样了啊~)|C G|F – |x2 (Hoo – -)
 Chorus :|Am |C |G |G |
24.
Apart
分离
(04'13'')
120bpm
[A]
| G D | Em D |
[Bridge]
| A | A | G | G |

[B](the day is now ready for u)
| C ~ |  - - - - | 
| G | G | C | C | D | D | C | C |
| D | D | C | C | D | D | C | C |
   
[C](you are sofe you are so lovely, leave me...)
| D | D | C | C |

[End/SOLO]
| G | G | C | C |
25.
Our Last Word
我们最后的话
(03'05'')
140bpm
4/4-Key=G
吉他和弦
 主歌 :[Em-(x2)-C-G]-(x2)-[D-Am-C-(x2)]-(x2)
 桥段 :G---
Solo和 弦 进行:G-(x2)-Em-(x2)
 结束短 (Ham-papa-rock..):G-(x2)-C-D 

SOLO---
E---
B---
G----2-4-4–4-0-2-4-4-2-0------4-4-2-0–2-0-2-4-2-0---0
D------------------------------–0-2--------------------------2
A---
E---
26.
Nova Nova
新星 新星
(04'12'')
140bpm
-4/4-Key=A
吉他和弦
 从头到尾 :A-E
27.
Toy & 61festival
玩具和儿童节
(03'41'')
140bpm
-4/4-Key=C
吉他和弦 
 主歌 /Solo
 |  C  |   Am   | C   | Am  |   C  |  Am  |  G  |  G  |
 副歌  
| C | G | Am | F | x4
 结束短 
|  C  | G  Am | x4   C

 前奏 /Solo---
E---
B---
G------0-0-0-2-2-2-0-0----0-0–0-4-2-2-0-0-
D----2----2------------0-2----2------------0
A---
E---

E-------------------0--------0
B---------------------1-0-0---1-0-0-0
G------0-0-0-2-2-------------------2-2-0-0–
D----2----2---------------------------------0
A---
E---

 间奏 Solo:
E---
B---
G----0-129-9–0-2–0-9/12-9–122–0-129-9–0-2–0-7^9-7-9-0–(x2)
D---
A---
E---
 |     C        |   Am     | C       | Am  |   C  |   Am  |    G  |   G    |

E: 
B:     8 8  8  | 10  10  10 8 8      |     8 8  8 | 10/12  10  10 8 8 
G:  9      9   |                       7   |  9      9   |                              7
D: 
A: 
E:
 |     C       | Am                      | C              | Am  


E:                              12         |           12      |
B:     8 8  8  | 10  10         13   | 12 12      13  |  12  12 12
G:  9      9   |                          |                     |                  14 14 12 12
D:                                                                |                                     12
A: 
E:
   |   C         |   Am                   |    G              |   G
28.
Elf
小鬼
(01'41'')
158bpm
KEY =G, 4/4, 150BPM 
[A]
| G C | D - - - |
[B]
| G C | D EF - - |
29.
Love Tosh
爱之废语
(03'19'')
140bpm
-4/4-Key=C
吉他和弦
 从头到尾 :C-F
 主歌  分解拨弦 :
E---
B---
G---------–9-9------–9-9-------9-9----9-0
D---
A---–10-10---–10-10------10-10---–10---
E----

E---
B---
G---------7-7---–7-7–9-9-9-7---9-7-
D---
A---–8-8---–8-8----------
E---
30.
Dragon Dung Ball
龙珠
(03'06'')
140bpm
-4/4-Key=C 
主歌 
吉他和弦
揉3 弦 2品

贝司
E----8-5-0-8-5-0-3-5–8-5-0-8-5-0-5-7 

[B]
| Am | Am | C | C | Em | F | C | Em |
31.
Pumpkin
南瓜
(03'39'')
140bpm
E:
B:
G:
D:
A:                7 | 7/999 99           |                 7| 7/999 9       |
E: 7\555 555   |              97        | 7\555 555  |             997 | 
   | (B)\A         | (E)#F     (#CB)  |
32.
Lapse
流逝
(03'46'')
140bpm
-4/4-Key=G
Guitar Chord 
Verse:| G | G | Bm | Bm |
Chorus:| G | Em | C | D | 

#striptags#
-4/4-Key=G
Guitar Chord 
Verse:| G | G | Bm | Bm |
Chorus:| G | Em | C | D | 

#/striptags#
33.
One
(03'31'')
140bpm
Guitar Chord
 Verse :| – - – A – C| D – F G | (攥着3-5 String 的部分砍奏)
 Chorus :| D | F | G | A | 


BASS
Verse
G:       
D:                                        3 355 5 5
A: 55 553 5             3 | 55 55                  3 |  (x2)
E:              33 3335                             35

G:       
D:                                              35 55 5 5335
A: 55 5 5335              3 | 55 5 55                    |
E:                 33 3 335                             

G:       
D:                                              35 55 5           |            5307 567
A: 55 5 5335              3 | 55 5 55               0^3 | 0 0 0 0 
E:                 33 3 335                            3 
|  D               F G          | D           F G                | A (桥段,马上接副歌)

Chorus
G:       
D:               3 33 3    3 5 55 5  35 7 77 7753 | 
A: 5 55 535           55            5
E:                                    
|   D           F                 G            A              |

G:       
D:               3 33 3    3 5 55 5  35 7 77 8753 | 
A: 5 55 535           55            5
E:                                    
|   D           F                 G            A              |


B段(i m one, i love one, until i shake my hands)
G:       
D:  
A: 5555 5555 5555 5555 0000 0000 1111 3333  (x4)
E:                                    
|   D                              A                #A    C    |
34.
Idle
(04'26'')
140bpm
Guitar Chord
 Verse :| E | G |
 Chorus :| E  Middle Note (5 String :2 1 0 ) | A | x3 | G | G | 


BASS
Verse
G:       
D: 2 2   1^2 2  2/5 5   4^5 5 5 | 2 2  1^2     0 2  5 5 4^5   0 1
A:                                                             2                    2
E: 
|  E                  G                      | E                       G                 |

G:       
D:  2 2  1^2     0 2  5 5 4^5    5 | 2 2  1^2     0 2  5 5 4^5  5 5
A:               2                     5                       2                     
E: 
|  E                  G                      | E                       G                 |

G:                   0 2                                         0 2
D:  2 2   2 2 2        2 0  0 0   0 1 | 2 2    2 2 2        2 0  0 0   0 1
A:                                     2                                            2                     
E: 
|  E                  G                      | E                       G                 |


G:                   2/4  7 4 4 44 24 0              0 2                          
D:  2 2   2 2 2                             2  2 | 22       2 0 0 0    0 1
A:                                                                             2                     
E:
|  E                         G                        | E             G                 |


Chorus
G:                     
D:  2 222                         |                                   |
A:              210 00 0012   |              210 00 0012   |
E:           0                       | 0 00 00                       |
|  E             B #A G          | E          B #A G            |

G:                     
D:  2 222                         |               5 55 5    0 1 |
A:              210 00 0012   |                          2       |
E:           0                       | 3 33 333                     |
|  E             B #A G          | G                                |
35.
Buffer
缓冲
(03'01'')
140bpm
BASS
Verse
G:       
D: 
A:        55 5      /77        |
E: 77 7         22      55 5 |

Chorus
G:       
D: 
A:              9              4     |
E: 7 /10 10      2 2/5 5    5  |

Solo
G:       
D: 
A:                               |                                 |        7777888899999999 (4)|
E: 7 7 0002 222 2012 | 7 7 0002 222/5 555 | (x4)  


Mopho settings
PxxBx ProgramName
36.
Wink (2014 XiaoWu session, original from HAPPY IDLE KID 2006)
眨眼睛
(03'16'')
140bpm
吉他和弦
 主歌 :|#A #F #C|#G #D #A|#C – - – |#C – #G -|
 副歌 :|#A – #C -|#G – #F -|
 桥段  与  索罗 :|#A #G|#C #D|
37.
Mind Walk
柏油公路
(04'06'')
140bpm
Guitar Chord
 Verse :|Em D |Em D |Em D |C -|
 Chorus :|G D |Em – | (反复6遍) |C -|D – | 

BASS
Verse
G:                  
D:                 |        5^4     |
A:      /7 7 5   |               5  |          /7 7 5  3   0 2 3 5
E: 0 0            |  0 0             |   0 0 
| E         D     |  E        D     |    E      D       C              |
   
Chorus
G:                              9
D:                        7/9    9 7
A:     3^5 5 3/5 7                 10 7  (x4)
E: 3 
|  G      D          E                        |

G:                                              7~
D:                                        5/7 
A: 3 33 3333 3333 3023 5 55                         | 
E: 
|  C                                D                            |

Bridge
G:     
D:                              55 55
A:         55 555 77               5 55 (x2)   3 33 3^2 0^2    :||
E: 0   0                 0 0 
|  E        D        |   E       D                |   C                      |

#striptags#

Guitar Chord
 Verse :|Em D |Em D |Em D |C -|
 Chorus :|G D |Em – | (反复6遍) |C -|D – | 

BASS
Verse
G:                  
D:                 |        5^4     |
A:      /7 7 5   |               5  |          /7 7 5  3   0 2 3 5
E: 0 0            |  0 0             |   0 0 
| E         D     |  E        D     |    E      D       C              |
   
Chorus
G:                              9
D:                        7/9    9 7
A:     3^5 5 3/5 7                 10 7  (x4)
E: 3 
|  G      D          E                        |

G:                                              7~
D:                                        5/7 
A: 3 33 3333 3333 3023 5 55                         | 
E: 
|  C                                D                            |

Bridge
G:     
D:                              55 55
A:         55 555 77               5 55 (x2)   3 33 3^2 0^2    :||
E: 0   0                 0 0 
|  E        D        |   E       D                |   C                      |

#/striptags#
38.
You Are So Famous (2012 Sun Fun Gun TAIWAN EDITION BONUS TRACK))
你真有名
(02'16'')
140bpm
[to get this track, check here-http://hedgehogrock.com/article/58 ]
39.
Heart On Fire
燃烧的心
(04'25'')
140bpm
KEY=C, BMP=180
Guitar Chord
| C | F |
40.
Dear Boy I Wanna Be Your Girl Friend
亲爱的我想做你女朋友
(02'30'')
140bpm
KEY=C, BMP=150
 
Guitar Chord
A:
E:                5 55 5555          |
B:5 55 555   5 55 5555          |
G:5 55 555   5 55 5555   (x3) |
D:5 55 555   7 77 7777          |
A:3 33 333                            |               3                      3
E:                                         |  3^5 5 5      5    3^5 5 5      5     
 
|   C            | Am     (扫 String x3)  | G                  |  G                  |

BASS
G:       
D: 
A: 3 33 333     3   3/153     (x3)  |               3                      3
E:                5   5             5         |  3^5 5 5      5    3^5 5 5      5     
|   C            | Am                        | G                  |  G                  |
41.
Surf With Shark
和鲨鱼一起冲浪
(02'50'')
140bpm
KEY=#A, BMP=140
6 String 降全音(E-D)
Guitar Chord
E: 
B:  
G: 
D:  5   8   12    3   5   8
A:  5   8   12    3   5   8
D:  5   8   12    3   5   8
|    G  #A  D    | F   G   #A |
42.
We Fly Into Space
我们飞向太空
(06'35'')
140bpm
KEY=C, BMP=112
Guitar Chord
RIFF
E:
B:
G:    5    5    5    5
D: 7    7    7    7           5     5     5     5
A:                            7     7     7     7
E: 
   |    Am               |  Em                    |

INTRO SOLO
E:
B:                  8 8/10 8     10 
G:     7 7/9  9                9      7 7/9    (x2)
D: 7    
A:
E:

E:
B:       10 12 13  12 10 8        10 12 13 12 10 12
G: -  9                             - 9                              9
D:
A:
E:

E:
B:       8 10 8  10/12  10 8    8   10 12 13 12 10 12 
G: -  9          9                   9   9                             9
D:
A:
E:

E: 12 12 12 12 10 8 10 7~ 7 8/10     12 12 12 12 10 8 10 
B: 10 10 10                                     10 10 10                  8~
G: 9   9   9                                       9   9   9 
D:
A:
E:

E: 12 12 12 12 10 12 13  7 5 3 5/7    8^7 5^7^5  3 5  
B: 10 10 10                                                               3/5
G: 9   9   9  
D:
A:
E:

BRIDGE 桥
E:      5~                     3  3^5 3           5  7 8 7 5 3~
B:      5~     0              3                      5                     0
G:   5                       4                     5                           0     (x2)
D: 7               2     5                     7
A: 
E:
   |  Am |               G                 |  Am        |        G         |
43.
DDDreaMMM
梦幻想
(06'23'')
140bpm
4/4 KEY=C, BMP=150
Guitar Chord
| C | C | C | C | Em | Em | Em | Em |
44.
Paintings
(04'37'')
140bpm
2/4 KEY=C, BMP=100
 | C | Am | Em | Dm | C | Am | Em | G |
45.
She Is Under The Moon
她在月光下
(05'24'')
140bpm
KEY=Em, BMP=110
Guitar Chord
E: 
B:  
G:                    9                         9  12 12 11 9
D:        9                      9          
A:    10        10        10           10
E: 0         0          0            0
   | E |     E |        E |          E        |

E:  
B:     
G:        9          12        9             11  
D:    10        10        10           10 
A: 0         0          0            0    

E:  
B:                                                      10 12
G:        9          12          9      9 11 12  
D:   10         10         10     10
A:0           0          0   
E: 
   | A |     A |       A |         A        |
46.
Warm Waves Warm Your Heart
暖浪拂心田
(04'45'')
140bpm
KEY=C, BMP=140
 
Guitar Chord
E: 
B:  
G: 5 55 555 55 55 555         | 5 55 555 55 55 555 3 33 333 33 33 333 |
D: 3 33 333 33 33 333 (x2)  | 5 55 555 55 55 555 5 55 555 55 55 555 |
A: 
E: 
|  F              | F         | F | F | Dm         | Dm         | Am      | Am       |
47.
Mind Road (2014 XiaoWu session, original from HAPPY IDLE KID 2006)
柏油公路
(04'09'')
140bpm
Guitar Chord
 Verse :|Em D |Em D |Em D |C -|
 Chorus :|G D |Em – | (反复6遍) |C -|D – | 

BASS
Verse
G:                  
D:                 |        5^4     |
A:      /7 7 5   |               5  |          /7 7 5  3   0 2 3 5
E: 0 0            |  0 0             |   0 0 
| E         D     |  E        D     |    E      D       C              |
   
Chorus
G:                              9
D:                        7/9    9 7
A:     3^5 5 3/5 7                 10 7  (x4)
E: 3 
|  G      D          E                        |

G:                                              7~
D:                                        5/7 
A: 3 33 3333 3333 3023 5 55                         | 
E: 
|  C                                D                            |

Bridge
G:     
D:                              55 55
A:         55 555 77               5 55 (x2)   3 33 3^2 0^2    :||
E: 0   0                 0 0 
|  E        D        |   E       D                |   C                      |
48.
O Man (2015 Single)
哦,男人。
(04'28'')
140bpm
KEY=C, BMP=120, 8/4
吉他各弦调音(1-6弦): EBAEA#F

吉他和弦进行
| A[000020]                                         | #Fm[002002] | x4
| D[000505] x2 B[000200] #C[000400] |

索罗1
E:                   5
B: 5             5    5  7    7    7   7(9)  
A:    4    4 5               7    7          7   7 (x4)
E:       5                                         9
A: 
#F:
 
E:                    7 9 5
B: 7     7    7 9     
A:    7    7     
E:
A: 
#F: 

索罗2 
E:           9      7     7  9       9    7    7 9
B: 10 10     10   10       7 7     7    7 
A:                                                          (x3)
E:    
A: 
#F:
 
E:           9      7     7  9/ 14 14 12       7 9 12 12
B: 10 10     10   10                         10
A:                                                          
E:    
A: 
#F:
 
E: 7             7        7 9   
B:    10 7 10    10          10
A:   
E:
A: 
#F: 

主 贝司
G:       6 6667 77/99 /11 11 11 11 
D: 777 
A: 
E: 

G:      4 4446 66^77 6446 
D: 444
A: 
E: 

G:       6 6667 77/99 11 11 97
D: 777 
A: 
E: 

G:      4 44/66 6667 7646 
D: 444
A: 
E: 
  以上 x2

副 贝司 
G: 5 55 557 42  2^4444  
D: 
A: 
E:
49.
Idle (2014 XiaoWu session, original from HAPPY IDLE KID 2006)
(04'37'')
140bpm
Guitar Chord
 Verse :| E | G |
 Chorus :| E  Middle Note (5 String :2 1 0 ) | A | x3 | G | G | 


BASS
Verse
G:       
D: 2 2   1^2 2  2/5 5   4^5 5 5 | 2 2  1^2     0 2  5 5 4^5   0 1
A:                                                             2                    2
E: 
|  E                  G                      | E                       G                 |

G:       
D:  2 2  1^2     0 2  5 5 4^5    5 | 2 2  1^2     0 2  5 5 4^5  5 5
A:               2                     5                       2                     
E: 
|  E                  G                      | E                       G                 |

G:                   0 2                                         0 2
D:  2 2   2 2 2        2 0  0 0   0 1 | 2 2    2 2 2        2 0  0 0   0 1
A:                                     2                                            2                     
E: 
|  E                  G                      | E                       G                 |


G:                   2/4  7 4 4 44 24 0              0 2                          
D:  2 2   2 2 2                             2  2 | 22       2 0 0 0    0 1
A:                                                                             2                     
E:
|  E                         G                        | E             G                 |


Chorus
G:                     
D:  2 222                         |                                   |
A:              210 00 0012   |              210 00 0012   |
E:           0                       | 0 00 00                       |
|  E             B #A G          | E          B #A G            |

G:                     
D:  2 222                         |               5 55 5    0 1 |
A:              210 00 0012   |                          2       |
E:           0                       | 3 33 333                     |
|  E             B #A G          | G                                |
50.
Neurons (2015 ZO's HOME SESSION)
神经元
(07'22'')
140bpm
1=bA ♩=100, 4/4
♬: 1=bA(#G) 2=#A 3=C 4=#C 5=#D 6=F 7=G
Ψ:525365 (#D#A#D C F#D)
♫: bA(1)[030020] F(6)[000220] 

[GUITAR]
[A段]

#D: ||:                           |      0              |  
#A: ||:     2  2     2⌒ 0    |   2    0  2⌒ 0  | 
#D: ||:     ↑  ↑  ↑              |                      |   
   C: ||:  ↑        ↑          ↑ ⌒                    ↑⌒
   F:  ||: 3                   3 ⌒                    0⌒ 
#D:  ||:                          |                       |
           #G(1)                #G                 F(6)

#D:                                |      0                  :||  
#A:          2  2      2⌒   0 |   2       2⌒          :|| 
#D:  ⌒ ↑  ↑   ↑  ↑⌒   2      |  2     2       2       :||   
   C:  ⌒        ↑               ↑⌒                      ↑   :||
   F:                             0⌒                     3   :||
#D:                                |                           :||
            F                       F                     #G(1)

B段
#D: 
#A: 
#D: 
   C: 
   F: 
#D:
52.
Slogan (2015 B-side, previous unrelased)
口号
(03'38'')
140bpm
Guitar Chord 
A段
| #C  #G  #C #F |

B段
E: 
B:  
G: 
D: 6 66 66 66 6 66 66 65 | 4 44 44 44 4 44 44 43 |
A: 6 66 66 66 6 66 66 65 | 4 44 44 44 4 44 44 43 |
E: 4 44 44 44 4 44 44 43 | 2 22 22 22 2 22 22 23 | (x2)
   #G                                #F                                       | E  | E |

Songwriter

all songs written by ZO music by Hedgehog
- (0.071092844009399s)
◕‿◕
Ph㊣ne