+
- » 音乐 » 吉他谱♪ » 蜜杀 ♪ 曲谱

蜜杀

Honeyed And Killed 4:30
[蜜杀]
honey,honey
甜心,甜心
i hope the world just you and me
我期望这世界只有我和你
candy,candy
糖果,糖果
i need it so much but it nearly kill me
我如此需要你,但你几乎杀死了我
love me,hate me
爱我,恨我
if you really love me please shoot me
如果真的爱我请杀了我
jesus,jesus
上帝,上帝
please send me your choice
请告诉我你的选择
[蜜杀]
🦔⊿📄
🎸 +0 EBGDAE
4/4 key=D
Guitar Chord
 Verse  Chorus :D A
 Intro 
E-----------------------0----------------------------------------
B------------10-----------10--------------------------------0--------
A-------11-------11-------------(x2)----------10---------------10-----(x2)--
D-------0---------------------------------12---------12--------------
A------------------------------------------0-------------------
E----------------------------------------------------------------

SOLO
E---------------------------------------------------------------
B------------9--11--14--11-11-11-9-9-11--14-14-------------------------
A-------11--------------------------------------------------9-11/14-11----------------------------
D-------0---------------------------------------------------------------0---------------------
A-------------------------------------------------------------
E---------------------------------------------------------------- 
 
A/#Fm 140bpm

🎸 - ?

🎸乐谱符号说明


1 = C (根音)
120 bpm (速度 bit per minute)
4/4
--------------------------------------------
♩= (4分音符) = 1bit
♪ = 1/2♩(8分音符) = 1/2bit
♫ = 2 x 1/2♩=1bit
-/↓/↑ = 1/2♩(8分音符) = 1/2bit
♬ = 2 x 1/2 ♪ (16分音符) = 1/2bit
| = 小节线  
数字 = 品位 = ♪
(无音符后缀标记时 
默认时值 = 1/2bit) 
-------------------------------------------
🦔⊿📄
🎸 +0 EBGDAE
4/4 key=D
Guitar Chord
 Verse  Chorus :D A
 Intro 
E-----------------------0----------------------------------------
B------------10-----------10--------------------------------0--------
A-------11-------11-------------(x2)----------10---------------10-----(x2)--
D-------0---------------------------------12---------12--------------
A------------------------------------------0-------------------
E----------------------------------------------------------------

SOLO
E---------------------------------------------------------------
B------------9--11--14--11-11-11-9-9-11--14-14-------------------------
A-------11--------------------------------------------------9-11/14-11----------------------------
D-------0---------------------------------------------------------------0---------------------
A-------------------------------------------------------------
E---------------------------------------------------------------- 
 


0 s
0 s
+
 
En