+
- » 音乐 » 吉他谱♪ » 噪音袭击世界 ♪ 曲谱

噪音袭击世界

Noise Hit World 2:38
l
[噪音袭击世界]
push push push us into a kitbag
把我们装进帆布袋
give us juice and some food
给我们食物和果珍
we will tie each other and grow together
我们彼此缠绕共同生长
we will make noise and hit the world
我们制造噪音袭击世界
🎸 t
[噪音袭击世界]
🦔⊿📄
🎸 +0 EBGDAE
-2/4-Key=E
吉他和弦
 前奏 :
E: 
B:  
G: 
D: -------------–7-7
A: ----5-7-5--7-----7-7-7-7-5-5\2-2/-5-5
E:
           |        E                         |B       D|
唱:
E: 
B:  
G: 
D:--------0---0^2-2-2-2-2-0-------0-0- 
A:----0-2-----------------------2-2
E: 
 |                     E                |B      D|
 
G/Em 140bpm

🎸 - ?

🎸乐谱符号说明


1 = C (根音)
120 bpm (速度 bit per minute)
4/4
--------------------------------------------
♩= (4分音符) = 1bit
♪ = 1/2♩(8分音符) = 1/2bit
♫ = 2 x 1/2♩=1bit
-/↓/↑ = 1/2♩(8分音符) = 1/2bit
♬ = 2 x 1/2 ♪ (16分音符) = 1/2bit
| = 小节线  
数字 = 品位 = ♪
(无音符后缀标记时 
默认时值 = 1/2bit) 
-------------------------------------------
🦔⊿📄
🎸 +0 EBGDAE
-2/4-Key=E
吉他和弦
 前奏 :
E: 
B:  
G: 
D: -------------–7-7
A: ----5-7-5--7-----7-7-7-7-5-5\2-2/-5-5
E:
           |        E                         |B       D|
唱:
E: 
B:  
G: 
D:--------0---0^2-2-2-2-2-0-------0-0- 
A:----0-2-----------------------2-2
E: 
 |                     E                |B      D|
 


0 s
0 s
+
 
En