-
- » MUSIC » Honeyed And Killed » Paper Airplane

「Honeyed And Killed」

甜蜜与杀害

2011-03-18 | LP | Modern Sky
-
After “Noise Hit World” and “Blue Daydreaming”, it was time for Hedgehog to say goodbye to youth. The title of the album Honeyed And Killed sums up ... ( ↓ See All)

After “Noise Hit World” and “Blue Daydreaming”, it was time for Hedgehog to say goodbye to youth. The title of the album Honeyed And Killed sums up the album’s concept. All the songs are about love and death, drugs and politics, credibility and integrity, and the lack of value and respect in China. The result is a big contrast between dreams and reality. Covering the meaning of life, youth, love and death. Tracks that really encapsulate the albums feeling and message are "Kill Your Age" "Honeyed And Killed" "Paper Airplane" "Wet White Doll" “Sparklehorse” and " The End"

( ↑ Wrap)
  • prev song:
    Hello Candy
    你好,糖果
    (04'43'')
  • next song:
    Wet White Doll
    白娃娃
    (04'10'')
  • Paper Airplane
    纸飞机
    (03'43'')
    l
    [Paper Airplane]
    -

    if you want to shoot some heroin
    如果你想走些飞药
    first you must think of what it means
    首先要清楚他意味着什么
    lose your health and feel helpless
    失去你的健康,感到无助
    hard to forget , when you understand it
    当你清醒时便难以忘记
    once you fly , it means to death
    当你起飞时就意味着死亡
    all behind , all the things seem so sad
    所有的事情都抛在脑后,所有的事情都看上去很悲哀
    once you fly , it's it will end your life
    当你起飞时就意味着终止生命
    at that time you look so bad
    那时候你看起来真差劲

    he is a boy who came from north
    他是一个男孩,来自北方
    he loves to drink and he loves to make noise
    他喜欢喝酒,喜欢制造噪音
    once upon he played with toy
    曾经他喜欢玩玩具
    now he just lives in destroying
    现在他只想毁灭一切

    once he flyed, he just wanted to die
    一旦他起飞,他只想去死
    all these things made him feel so sad
    所有这些事让他感到悲哀
    once he flyed, he wanted to end the split life
    一旦他起飞,他只想停止分裂的生活
    at that time he looked so nice
    那时候他看起来很帅
    once we fly , we just want to die
    一旦我们起飞,我们只想去死
    all these things make us feel so sad
    所有这些让我们感到悲哀
    once we fly , we want to end the split life
    一旦我们起飞,我们想停止分裂的生活
    at that time we looked so nice
    那时候我们看上去很帅

    t
    [Paper Airplane]

    INTRODUCTION


    1 = C (root note)
    120 bpm (bit per minute)
    4/4
    --------------------------------------------
    ♩= (1/4bar note) = 1bit
    ♪ = 1/2♩(1/8bar note) = 1/2bit
    ♫ = 2 x 1/2♩=1bit
    -/↓/↑ = 1/2♩(1/8bar note) = 1/2bit
    ♬ = 2 x 1/2 ♪ (1/16bar note) = 1/2bit
    | = bar line  
    Number = Guitar Pad Position = ♪
    (when without appendix mark 
    default value = 1/2bit) 
    -------------------------------------------

    4/4 key=C
    Guitar Chord
    Verse  Chorus :Am C F Em
    Intro SOLO
    E--------------3-0---------0---3-0-----------------------------------------
    B---------------------1-3------------1---1-3-0---------------------------------
    A--0-2--0-2--------------------------------------0--------------------------
    D----------------------------------------------------------------------------------
    A----------------------------------------------------------------------------------
    E----------------------------------------------------------------

    C/Am 140bpm
    0 s
    0 s
  • prev song:
    Hello Candy
    你好,糖果
    (04'43'')
  • next song:
    Wet White Doll
    白娃娃
    (04'10'')
  • -

    if you want to shoot some heroin
    如果你想走些飞药
    first you must think of what it means
    首先要清楚他意味着什么
    lose your health and feel helpless
    失去你的健康,感到无助
    hard to forget , when you understand it
    当你清醒时便难以忘记
    once you fly , it means to death
    当你起飞时就意味着死亡
    all behind , all the things seem so sad
    所有的事情都抛在脑后,所有的事情都看上去很悲哀
    once you fly , it's it will end your life
    当你起飞时就意味着终止生命
    at that time you look so bad
    那时候你看起来真差劲

    he is a boy who came from north
    他是一个男孩,来自北方
    he loves to drink and he loves to make noise
    他喜欢喝酒,喜欢制造噪音
    once upon he played with toy
    曾经他喜欢玩玩具
    now he just lives in destroying
    现在他只想毁灭一切

    once he flyed, he just wanted to die
    一旦他起飞,他只想去死
    all these things made him feel so sad
    所有这些事让他感到悲哀
    once he flyed, he wanted to end the split life
    一旦他起飞,他只想停止分裂的生活
    at that time he looked so nice
    那时候他看起来很帅
    once we fly , we just want to die
    一旦我们起飞,我们只想去死
    all these things make us feel so sad
    所有这些让我们感到悲哀
    once we fly , we want to end the split life
    一旦我们起飞,我们想停止分裂的生活
    at that time we looked so nice
    那时候我们看上去很帅


    INTRODUCTION


    1 = C (root note)
    120 bpm (bit per minute)
    4/4
    --------------------------------------------
    ♩= (1/4bar note) = 1bit
    ♪ = 1/2♩(1/8bar note) = 1/2bit
    ♫ = 2 x 1/2♩=1bit
    -/↓/↑ = 1/2♩(1/8bar note) = 1/2bit
    ♬ = 2 x 1/2 ♪ (1/16bar note) = 1/2bit
    | = bar line  
    Number = Guitar Pad Position = ♪
    (when without appendix mark 
    default value = 1/2bit) 
    -------------------------------------------

    4/4 key=C
    Guitar Chord
    Verse  Chorus :Am C F Em
    Intro SOLO
    E--------------3-0---------0---3-0-----------------------------------------
    B---------------------1-3------------1---1-3-0---------------------------------
    A--0-2--0-2--------------------------------------0--------------------------
    D----------------------------------------------------------------------------------
    A----------------------------------------------------------------------------------
    E----------------------------------------------------------------

    - (0.24590802192688s)
    ◕‿◕
    Ph㊣ne