-
- » MUSIC » » Honeyed And Killed » Singles

2011

LP
0 s
0 s

「Honeyed And Killed」

甜蜜与杀害

2011-03-18 | LP | Modern Sky | ISRC:CNA651131300
[ 4S 6 5EN ] | | | | | | | $
-
After “Noise Hit World” and “Blue Daydreaming”, it was time for Hedgehog to say goodbye to youth. The title of the album Honeyed And Killed sums up ( ↓ See All)
After “Noise Hit World” and “Blue Daydreaming”, it was time for Hedgehog to say goodbye to youth. The title of the album Honeyed And Killed sums up the album’s concept. All the songs are about love and death, drugs and politics, credibility and integrity, and the lack of value and respect in China. The result is a big contrast between dreams and reality. Covering the meaning of life, youth, love and death. Tracks that really encapsulate the albums feeling and message are "Kill Your Age" "Honeyed And Killed" "Paper Airplane" "Wet White Doll" “Sparklehorse” and " The End"
( ↑ Wrap)
+ ♀♂ M♣rchs/S۩ore
- 4 Songs
  • S 1.
    Kill Your Age
    杀死你的时代
    ·00'05''
    l
    [Kill Your Age]
    嘿
    那个冰冷的黑夜里
    有我们未知的事件
    铁轮驶过长街
    残存红色的记忆碎片
    嘿
    他说:你快别
    时代早已瞬息万变
    历史也许会重演
    但青年绝不会再被歼灭
    
    膨胀的娱乐的世界
    狡猾诡辩的人间
    我早已厌倦
    这时代赐予我的一切
    嘿
    他说:你快别
    一切早已瞬息万变
    历史不会再重演
    但青年正在杀死周遭的青年
    
    tender flowers grow in the shade
    娇嫩的花朵在阴影中成长
    tiny neck , big brain
    细细的茎,大大的头
    if you really hate
    如果你真的恨
    kill your age
    杀死你的时代
    
    tender boys grow in the shade
    娇嫩的孩子在阴影里成长
    tiny neck , big brain
    细细的脖子,大大的脑袋
    if you really hate
    如果你真的恨
    kill your age
    杀死你的时代
    
    在对这世界认知形成前已被包围
    真实勒死于襁褓前莫须有的所谓
    如果你真的恨那日夜闪耀的光辉
    杀或被杀死在这时代源头的虚伪
     
    感知的萌芽在强暴中的本能崩溃
    简单的世界被灌以复杂蝶效原为
    如果你真的恨头顶那耀眼的光辉
    杀或被杀死在这时代源头的善伪
    t
    [Kill Your Age]

    INTRODUCTION


    1 = C (root note)
    120 bpm (bit per minute)
    4/4
    --------------------------------------------
    ♩= (1/4bar note) = 1bit
    ♪ = 1/2♩(1/8bar note) = 1/2bit
    ♫ = 2 x 1/2♩=1bit
    -/↓/↑ = 1/2♩(1/8bar note) = 1/2bit
    ♬ = 2 x 1/2 ♪ (1/16bar note) = 1/2bit
    | = bar line  
    Number = Guitar Pad Position = ♪
    (when without appendix mark 
    default value = 1/2bit) 
    -------------------------------------------
    4/4 key=F
    Guitar Chord
     Intro 
    E----------------------------------------------------------------
    B----------------------------------------------------------------
    A--------------------0--------------------------------------------
    D---------0--------------0-----------------------------------------
    A-----1--------1------------1-------------------------------------
    E--3--------------------------------------------------------------
     Verse 
    E----------------------------------------------------------------
    B----------------------------------------------------------------
    A----------------------------------------------------------------
    D---------0---------------------0------------(x3)---C---D----------------
    A-----1--------------------0-------------------------------------
    E--3----------3---------1----------1---------------------------------
     Chorus 
    G F x3 C D 
    
    
    |
  • S EN 2.
    Honeyed And Killed
    蜜杀
    ·00'04''
    l
    [Honeyed And Killed]
    honey,honey
    甜心,甜心
    i hope the world just you and me
    我期望这世界只有我和你
    candy,candy
    糖果,糖果
    i need it so much but it nearly kill me
    我如此需要你,但你几乎杀死了我
    love me,hate me
    爱我,恨我
    if you really love me please shoot me
    如果真的爱我请杀了我
    jesus,jesus
    上帝,上帝
    please send me your choice
    请告诉我你的选择
    t
    [Honeyed And Killed]

    INTRODUCTION


    1 = C (root note)
    120 bpm (bit per minute)
    4/4
    --------------------------------------------
    ♩= (1/4bar note) = 1bit
    ♪ = 1/2♩(1/8bar note) = 1/2bit
    ♫ = 2 x 1/2♩=1bit
    -/↓/↑ = 1/2♩(1/8bar note) = 1/2bit
    ♬ = 2 x 1/2 ♪ (1/16bar note) = 1/2bit
    | = bar line  
    Number = Guitar Pad Position = ♪
    (when without appendix mark 
    default value = 1/2bit) 
    -------------------------------------------
    4/4 key=D
    Guitar Chord
     Verse  Chorus :D A
     Intro 
    E-----------------------0----------------------------------------
    B------------10-----------10--------------------------------0--------
    A-------11-------11-------------(x2)----------10---------------10-----(x2)--
    D-------0---------------------------------12---------12--------------
    A------------------------------------------0-------------------
    E----------------------------------------------------------------
    
    SOLO
    E---------------------------------------------------------------
    B------------9--11--14--11-11-11-9-9-11--14-14-------------------------
    A-------11--------------------------------------------------9-11/14-11----------------------------
    D-------0---------------------------------------------------------------0---------------------
    A-------------------------------------------------------------
    E---------------------------------------------------------------- 
     
  • S EN 3.
    Paper Airplane
    纸飞机
    ·00'03''
    l
    [Paper Airplane]
    if you want to shoot some heroin
    如果你想走些飞药
    first you must think of what it means
    首先要清楚他意味着什么
    lose your health and feel helpless
    失去你的健康,感到无助
    hard to forget , when you understand it
    当你清醒时便难以忘记
    once you fly , it means to death
    当你起飞时就意味着死亡
    all behind , all the things seem so sad
    所有的事情都抛在脑后,所有的事情都看上去很悲哀
    once you fly , it's it will end your life
    当你起飞时就意味着终止生命
    at that time you look so bad
    那时候你看起来真差劲
    
    he is a boy who came from north
    他是一个男孩,来自北方
    he loves to drink and he loves to make noise
    他喜欢喝酒,喜欢制造噪音
    once upon he played with toy
    曾经他喜欢玩玩具
    now he just lives in destroying
    现在他只想毁灭一切
    
    once he flyed, he just wanted to die
    一旦他起飞,他只想去死
    all these things made him feel so sad
    所有这些事让他感到悲哀
    once he flyed, he wanted to end the split life
    一旦他起飞,他只想停止分裂的生活
    at that time he looked so nice
    那时候他看起来很帅
    once we fly , we just want to die
    一旦我们起飞,我们只想去死
    all these things make us feel so sad
    所有这些让我们感到悲哀
    once we fly , we want to end the split life
    一旦我们起飞,我们想停止分裂的生活
    at that time we looked so nice
    那时候我们看上去很帅
    t
    [Paper Airplane]

    INTRODUCTION


    1 = C (root note)
    120 bpm (bit per minute)
    4/4
    --------------------------------------------
    ♩= (1/4bar note) = 1bit
    ♪ = 1/2♩(1/8bar note) = 1/2bit
    ♫ = 2 x 1/2♩=1bit
    -/↓/↑ = 1/2♩(1/8bar note) = 1/2bit
    ♬ = 2 x 1/2 ♪ (1/16bar note) = 1/2bit
    | = bar line  
    Number = Guitar Pad Position = ♪
    (when without appendix mark 
    default value = 1/2bit) 
    -------------------------------------------
    4/4 key=C
    Guitar Chord
     Verse  Chorus :Am C F Em
     Intro SOLO
    E--------------3-0---------0---3-0-----------------------------------------
    B---------------------1-3------------1---1-3-0---------------------------------
    A--0-2--0-2--------------------------------------0--------------------------
    D----------------------------------------------------------------------------------
    A----------------------------------------------------------------------------------
    E----------------------------------------------------------------
    
    
  • S 4.
    The End
    最后,我们会一起去海边
    ·00'06''
    l
    [The End]
    去海边
    当我感到迷惘/失望/看到希望
    那里有海浪
    那里有我的梦想
    听海浪
    拍打在岩石上
    所有的过往
    淡没在沙滩上
    
    当我们踏着海浪
    微笑着谈论死亡
    明天是怎样
    我们再也不愿去想
    永远年轻
    永远热泪盈眶
    最后的乐章
    让我们一起歌唱
    t
    [The End]

    INTRODUCTION


    1 = C (root note)
    120 bpm (bit per minute)
    4/4
    --------------------------------------------
    ♩= (1/4bar note) = 1bit
    ♪ = 1/2♩(1/8bar note) = 1/2bit
    ♫ = 2 x 1/2♩=1bit
    -/↓/↑ = 1/2♩(1/8bar note) = 1/2bit
    ♬ = 2 x 1/2 ♪ (1/16bar note) = 1/2bit
    | = bar line  
    Number = Guitar Pad Position = ♪
    (when without appendix mark 
    default value = 1/2bit) 
    -------------------------------------------
    4/4 key=A
    Guitar Chord
     Verse :#Fm E
     Chorus :A E #Fm D
     Intro SOLO
    E---------------------------------------------------------------------
    B--------------------------------------------------------------------------------------
    A-----------6-------------------6-----------------6-----------------------------------
    D--4-6-7-----4-6---6-4-6-7----6-----4-6-7-----4-6--6-4-6-4--2-4-6---------
    A----------------------------------------------------------------------------------
    E----------------------------------------------------------------
    
    
    #striptags#
    4/4 key=A
    Guitar Chord
     Verse :#Fm E
     Chorus :A E #Fm D
     Intro SOLO
    E---------------------------------------------------------------------
    B--------------------------------------------------------------------------------------
    A-----------6-------------------6-----------------6-----------------------------------
    D--4-6-7-----4-6---6-4-6-7----6-----4-6-7-----4-6--6-4-6-4--2-4-6---------
    A----------------------------------------------------------------------------------
    E----------------------------------------------------------------
    
    
    #/striptags#
  • TIP: Copy the text below to download software such as XunLei and add a new download task to start downloading tracks for good reasons

    |   19'56'' ⊙♩►

    HEDGEHOG = RockZO (Guitar/Vocal) + Atom(Drum/Vocal) + Fun(Bass) | 刺猬 = 子健(吉他、唱)+阿童木(鼓、唱)+何一帆(贝斯)

    Producer:HEDGEHOG 刺猬

    Designer:RockZO 子健

    All Songs Written By: RockZO 所有词曲:子健

    The copyright in this sound recording is owned by Modern Sky © All rights reserved. Unauthorized duplication is a violation of applicable laws. 本作品声明著作权保护,未经授权,不得使用(包括不得使用其制作影像及录音制品),违者必究。









    More LP, ♪♪♪... back to MUSIC



    -
     
    中文