+
- » MUSIC » TAB♪ » 24 Hours Rock Party ♪ TAB

24 Hours Rock Party

二十四小时摇滚聚会
(04'48'')



INTRODUCTION


1 = C (root note)
120 bpm (bit per minute)
4/4
--------------------------------------------
♩= (1/4bar note) = 1bit
♪ = 1/2♩(1/8bar note) = 1/2bit
♫ = 2 x 1/2♩=1bit
-/↓/↑ = 1/2♩(1/8bar note) = 1/2bit
♬ = 2 x 1/2 ♪ (1/16bar note) = 1/2bit
| = bar line  
Number = Guitar Pad Position = ♪
(when without appendix mark 
default value = 1/2bit) 
-------------------------------------------
            
-4/4-Key=G
Guitar Chord
 From Start 2 End :Em-C-G-D

SOLO
E--0---------0-0-----------------------------2------------
B-----0---0-------0----0--3-0---0-3-3-0----0----------------------
G-------0------------0----------2-----------------2------------------------------------
D------------------------------------------------------
A------------------------------------------------------
E------------------------------------------------------

SOLO 2
E---------------------------------------------------
B--5-3----3-5--5-5-3------3-5--5--5-3----3----3----7-7-7-7-8-8-8------(x2)---------
G-------0-----------------0-----------------0----0----0---------
D------------------------------------------------------
A------------------------------------------------------
E------------------------------------------------------

E---------------------------------------------------
B----------------------------------------------------
G-----4-2------------------4-2-----------------------------
D--2-------0--------------------0-2-0--4-4-5-5------------------
A--------------3--3-5--2----------------------------------
E------------------------------------------------------

电子:
E( GUITAR 6 String  BASS 4 String )---0-12-0-12-12-0-12-0-0-12-12-10- 


HIDDEN
+ (0.055166959762573s)
◕‿◕
Ph㊣ne