+
- » MUSIC » TAB♪ » In Spring ♪ TAB

In Spring

春天来了
l
[In Spring]
-
春天里没有秘密
一切都还很安静
阳光折射入玻璃
微风浮响风铃
轻轻的把门打开
你已悄然到来
生活纵然悲哀
我已不愿再更改

We are walking in a big street
We are playing in a big city

好吧不用再说了
这是属于我的轨迹
只有这样我才能开心
纵然没什么道理
游戏已到了关底
空虚是最后结局
生活已然很精彩
我已不愿再更改

We are playing in a real party
People here are real and honest
t
[In Spring]

INTRODUCTION


1 = C (root note)
120 bpm (bit per minute)
4/4
--------------------------------------------
♩= (1/4bar note) = 1bit
♪ = 1/2♩(1/8bar note) = 1/2bit
♫ = 2 x 1/2♩=1bit
-/↓/↑ = 1/2♩(1/8bar note) = 1/2bit
♬ = 2 x 1/2 ♪ (1/16bar note) = 1/2bit
| = bar line  
Number = Guitar Pad Position = ♪
(when without appendix mark 
default value = 1/2bit) 
-------------------------------------------
L
-Key=A
From Start 2 End :A-(x2)-#Fm-E-


GUITAR 反复solo :
Guitar Chord
E---
B---
G----
D---–2---2---–2-4-4-2-2
A---0---4---4-0---------------4-4-2-4---–2-4-4-2-0
E-------------------------0-2------------0-0
A/#Fm 140bpm L S


INTRODUCTION


1 = C (root note)
120 bpm (bit per minute)
4/4
--------------------------------------------
♩= (1/4bar note) = 1bit
♪ = 1/2♩(1/8bar note) = 1/2bit
♫ = 2 x 1/2♩=1bit
-/↓/↑ = 1/2♩(1/8bar note) = 1/2bit
♬ = 2 x 1/2 ♪ (1/16bar note) = 1/2bit
| = bar line  
Number = Guitar Pad Position = ♪
(when without appendix mark 
default value = 1/2bit) 
-------------------------------------------
L 82

-Key=A
 From Start 2 End :A-(x2)-#Fm-E-
 

 GUITAR 反复solo :
Guitar Chord
E---
B---
G----
D---–2---2---–2-4-4-2-2
A---0---4---4-0---------------4-4-2-4---–2-4-4-2-0
E-------------------------0-2------------0-0
  
 


0 s
0 s
+ (1.5821399688721s)