+
- » MUSIC » TAB♪ » Pseudomorph ♪ TAB

Pseudomorph

假象
(03'05'')



INTRODUCTION


1 = C (root note)
120 bpm (bit per minute)
4/4
--------------------------------------------
♩= (1/4bar note) = 1bit
♪ = 1/2♩(1/8bar note) = 1/2bit
♫ = 2 x 1/2♩=1bit
-/↓/↑ = 1/2♩(1/8bar note) = 1/2bit
♬ = 2 x 1/2 ♪ (1/16bar note) = 1/2bit
| = bar line  
Number = Guitar Pad Position = ♪
(when without appendix mark 
default value = 1/2bit) 
-------------------------------------------
            
-4/4-Key=C/G
Guitar Chord
 Intro :
E---
B---
G---
D-----------------------------------------5-7-7
A------------–3-3-5-5-6-7-7-7-7-7-7-------6-6-5-5-3-3
E---3-3-5-5---------------------------------------------------5-5-5-5-5-5-5-5

唱前:
E---
B--------------------------------–8------
G---–8/98/98/98/98-(x4)------9–9–5-7-8/9-
D----0-~~~~~~~~~~~~~~~ 
A---
E---
-
唱:
E---
B------
G----9-~~~~~~–8-9~~~~~~
D---0~~~~~~~~~~~~~~~~~~~~
A---
E---

 Bridge Part :
E----
B----8-8-8-10-10–8-8-8-12-12–8-8-8-10-10
G----9-9-9-9–9---9-9-9-12-12–9-9-9-9–9–
D---------------------–12-12------------–10^-10^-10^–
A------------------------------------------10^-10^-10^–
E------------------------------------------8^–8^---8^–

SOLO---一把攥 
 


HIDDEN
+ (0.057636022567749s)
◕‿◕
Ph㊣ne