+
- » MUSIC » TAB♪ » Waiting For The Last Bus ♪ TAB

Waiting For The Last Bus

最后一班车
l
[Waiting For The Last Bus]
-
全部的爱都已回来
全部的恨都已离开
我站在朦胧的站台
等待最后一班车到来

晚风吹拂
生命的全部
在穿梭的梦里面
拼命的追逐
t
[Waiting For The Last Bus]

INTRODUCTION


1 = C (root note)
120 bpm (bit per minute)
4/4
--------------------------------------------
♩= (1/4bar note) = 1bit
♪ = 1/2♩(1/8bar note) = 1/2bit
♫ = 2 x 1/2♩=1bit
-/↓/↑ = 1/2♩(1/8bar note) = 1/2bit
♬ = 2 x 1/2 ♪ (1/16bar note) = 1/2bit
| = bar line  
Number = Guitar Pad Position = ♪
(when without appendix mark 
default value = 1/2bit) 
-------------------------------------------
4/4-Key=D
Guitar Chord
Verse :
E----0-------------------0-----------------0---
B----3------------–-----3-----------------3----
G----2------2^4--------2–---------------2----
D----0------------4-----0------2---4-----0----
A----
E----
|    D                      |   D                   | D

Chorus :
        | Em        | G   |
(晚风吹~~~~~~拂)
-
D/Bm 140bpm


INTRODUCTION


1 = C (root note)
120 bpm (bit per minute)
4/4
--------------------------------------------
♩= (1/4bar note) = 1bit
♪ = 1/2♩(1/8bar note) = 1/2bit
♫ = 2 x 1/2♩=1bit
-/↓/↑ = 1/2♩(1/8bar note) = 1/2bit
♬ = 2 x 1/2 ♪ (1/16bar note) = 1/2bit
| = bar line  
Number = Guitar Pad Position = ♪
(when without appendix mark 
default value = 1/2bit) 
-------------------------------------------
4/4-Key=D
Guitar Chord
 Verse : 
E----0-------------------0-----------------0---
B----3------------–-----3-----------------3----
G----2------2^4--------2–---------------2----
D----0------------4-----0------2---4-----0----
A----
E----
|    D                      |   D                   | D 

 Chorus :
        | Em        | G   |
(晚风吹~~~~~~拂)
- 


HIDDEN
+ (2.614620923996s)