+
- » MUSIC » TAB♪ » Kill Your Age ♪ TAB

Kill Your Age

杀死你的时代
l
[Kill Your Age]
-

那个冰冷的黑夜里
有我们未知的事件
铁轮驶过长街
残存红色的记忆碎片

他说:你快别
时代早已瞬息万变
历史也许会重演
但青年绝不会再被歼灭

膨胀的娱乐的世界
狡猾诡辩的人间
我早已厌倦
这时代赐予我的一切

他说:你快别
一切早已瞬息万变
历史不会再重演
但青年正在杀死周遭的青年

tender flowers grow in the shade
娇嫩的花朵在阴影中成长
tiny neck , big brain
细细的茎,大大的头
if you really hate
如果你真的恨
kill your age
杀死你的时代

tender boys grow in the shade
娇嫩的孩子在阴影里成长
tiny neck , big brain
细细的脖子,大大的脑袋
if you really hate
如果你真的恨
kill your age
杀死你的时代

在对这世界认知形成前已被包围
真实勒死于襁褓前莫须有的所谓
如果你真的恨那日夜闪耀的光辉
杀或被杀死在这时代源头的虚伪

感知的萌芽在强暴中的本能崩溃
简单的世界被灌以复杂蝶效原为
如果你真的恨头顶那耀眼的光辉
杀或被杀死在这时代源头的善伪
t
[Kill Your Age]

INTRODUCTION


1 = C (root note)
120 bpm (bit per minute)
4/4
--------------------------------------------
♩= (1/4bar note) = 1bit
♪ = 1/2♩(1/8bar note) = 1/2bit
♫ = 2 x 1/2♩=1bit
-/↓/↑ = 1/2♩(1/8bar note) = 1/2bit
♬ = 2 x 1/2 ♪ (1/16bar note) = 1/2bit
| = bar line  
Number = Guitar Pad Position = ♪
(when without appendix mark 
default value = 1/2bit) 
-------------------------------------------
4/4 key=F
Guitar Chord
Intro
E----------------------------------------------------------------
B----------------------------------------------------------------
A--------------------0--------------------------------------------
D---------0--------------0-----------------------------------------
A-----1--------1------------1-------------------------------------
E--3--------------------------------------------------------------
Verse
E----------------------------------------------------------------
B----------------------------------------------------------------
A----------------------------------------------------------------
D---------0---------------------0------------(x3)---C---D----------------
A-----1--------------------0-------------------------------------
E--3----------3---------1----------1---------------------------------
Chorus
G F x3 C D
F/Dm 140bpm S


INTRODUCTION


1 = C (root note)
120 bpm (bit per minute)
4/4
--------------------------------------------
♩= (1/4bar note) = 1bit
♪ = 1/2♩(1/8bar note) = 1/2bit
♫ = 2 x 1/2♩=1bit
-/↓/↑ = 1/2♩(1/8bar note) = 1/2bit
♬ = 2 x 1/2 ♪ (1/16bar note) = 1/2bit
| = bar line  
Number = Guitar Pad Position = ♪
(when without appendix mark 
default value = 1/2bit) 
-------------------------------------------

4/4 key=F
Guitar Chord
 Intro 
E----------------------------------------------------------------
B----------------------------------------------------------------
A--------------------0--------------------------------------------
D---------0--------------0-----------------------------------------
A-----1--------1------------1-------------------------------------
E--3--------------------------------------------------------------
 Verse 
E----------------------------------------------------------------
B----------------------------------------------------------------
A----------------------------------------------------------------
D---------0---------------------0------------(x3)---C---D----------------
A-----1--------------------0-------------------------------------
E--3----------3---------1----------1---------------------------------
 Chorus 
G F x3 C D 


0 s
0 s
+ (0.077421188354492s)