+
- » MUSIC » TAB♪ » Kill Your Age ♪ TAB

Kill Your Age

杀死你的时代
(05'30'')



INTRODUCTION


1 = C (root note)
120 bpm (bit per minute)
4/4
--------------------------------------------
♩= (1/4bar note) = 1bit
♪ = 1/2♩(1/8bar note) = 1/2bit
♫ = 2 x 1/2♩=1bit
-/↓/↑ = 1/2♩(1/8bar note) = 1/2bit
♬ = 2 x 1/2 ♪ (1/16bar note) = 1/2bit
| = bar line  
Number = Guitar Pad Position = ♪
(when without appendix mark 
default value = 1/2bit) 
-------------------------------------------
            
4/4 key=F
Guitar Chord
 Intro 
E----------------------------------------------------------------
B----------------------------------------------------------------
A--------------------0--------------------------------------------
D---------0--------------0-----------------------------------------
A-----1--------1------------1-------------------------------------
E--3--------------------------------------------------------------
 Verse 
E----------------------------------------------------------------
B----------------------------------------------------------------
A----------------------------------------------------------------
D---------0---------------------0------------(x3)---C---D----------------
A-----1--------------------0-------------------------------------
E--3----------3---------1----------1---------------------------------
 Chorus 
G F x3 C D 


0 s
0 s
+ (0.099610090255737s)
◕‿◕
Ph㊣ne