+
- » MUSIC » TAB♪ » Sparklehorse ♪ TAB

Sparklehorse

闪马
l
[Sparklehorse]
-
新的一天已开始
让我们快乐一点好吗
不要总愁眉苦脸的思考你的明天
尽管这是个悲伤而又美丽的世界
快乐的奔跑的小马
它闪烁着出现

来,靠近我一些
说,甜蜜的语言
快,再靠近一点
说,我们的明天

a horse takes his own way
the horse has took his own way
every horse has his own way
oh my horse please take your way
t
[Sparklehorse]

INTRODUCTION


1 = C (root note)
120 bpm (bit per minute)
4/4
--------------------------------------------
♩= (1/4bar note) = 1bit
♪ = 1/2♩(1/8bar note) = 1/2bit
♫ = 2 x 1/2♩=1bit
-/↓/↑ = 1/2♩(1/8bar note) = 1/2bit
♬ = 2 x 1/2 ♪ (1/16bar note) = 1/2bit
| = bar line  
Number = Guitar Pad Position = ♪
(when without appendix mark 
default value = 1/2bit) 
-------------------------------------------

4/4 key=G
Guitar Chord
Verse :G Em
桥:D Em
E-----------------------0--------------------------------------0-------
B------0--3----3-0---0------------------------0----------0----0----------------------
A---2------------------0-----(x4)-------0-2--------0^2-----------------------------
D--------------------------------------2------------------------------2--------------
A----------------------------------------------------------------------------------
E----------------------------------------------------------------

#striptags#
4/4 key=G
Guitar Chord
Verse :G Em
桥:D Em
E-----------------------0--------------------------------------0-------
B------0--3----3-0---0------------------------0----------0----0----------------------
A---2------------------0-----(x4)-------0-2--------0^2-----------------------------
D--------------------------------------2------------------------------2--------------
A----------------------------------------------------------------------------------
E----------------------------------------------------------------

#/striptags#
G/Em 140bpm


INTRODUCTION


1 = C (root note)
120 bpm (bit per minute)
4/4
--------------------------------------------
♩= (1/4bar note) = 1bit
♪ = 1/2♩(1/8bar note) = 1/2bit
♫ = 2 x 1/2♩=1bit
-/↓/↑ = 1/2♩(1/8bar note) = 1/2bit
♬ = 2 x 1/2 ♪ (1/16bar note) = 1/2bit
| = bar line  
Number = Guitar Pad Position = ♪
(when without appendix mark 
default value = 1/2bit) 
-------------------------------------------
#code#
4/4 key=G
Guitar Chord
 Verse :G Em
桥:D Em
E-----------------------0--------------------------------------0-------
B------0--3----3-0---0------------------------0----------0----0----------------------
A---2------------------0-----(x4)-------0-2--------0^2-----------------------------
D--------------------------------------2------------------------------2--------------
A----------------------------------------------------------------------------------
E---------------------------------------------------------------- 
#striptags#
4/4 key=G
Guitar Chord
 Verse :G Em
桥:D Em
E-----------------------0--------------------------------------0-------
B------0--3----3-0---0------------------------0----------0----0----------------------
A---2------------------0-----(x4)-------0-2--------0^2-----------------------------
D--------------------------------------2------------------------------2--------------
A----------------------------------------------------------------------------------
E---------------------------------------------------------------- 
#/striptags##/code#


0 s
0 s
+ (0.14997315406799s)