+
- » 音乐 » 吉他谱♪ » 最后,我们会一起去海边 ♪ 曲谱

最后,我们会一起去海边

The End 6:13
l
[最后,我们会一起去海边]
去海边
当我感到迷惘/失望/看到希望
那里有海浪
那里有我的梦想
听海浪
拍打在岩石上
所有的过往
淡没在沙滩上

当我们踏着海浪
微笑着谈论死亡
明天是怎样
我们再也不愿去想
永远年轻
永远热泪盈眶
最后的乐章
让我们一起歌唱
t
[最后,我们会一起去海边]
4/4 key=A
Guitar Chord
 Verse :#Fm E
 Chorus :A E #Fm D
 Intro SOLO
E---------------------------------------------------------------------
B--------------------------------------------------------------------------------------
A-----------6-------------------6-----------------6-----------------------------------
D--4-6-7-----4-6---6-4-6-7----6-----4-6-7-----4-6--6-4-6-4--2-4-6---------
A----------------------------------------------------------------------------------
E----------------------------------------------------------------


#striptags#
4/4 key=A
Guitar Chord
 Verse :#Fm E
 Chorus :A E #Fm D
 Intro SOLO
E---------------------------------------------------------------------
B--------------------------------------------------------------------------------------
A-----------6-------------------6-----------------6-----------------------------------
D--4-6-7-----4-6---6-4-6-7----6-----4-6-7-----4-6--6-4-6-4--2-4-6---------
A----------------------------------------------------------------------------------
E----------------------------------------------------------------


#/striptags#
A/#Fm 140bpm


乐谱符号说明


1 = C (根音)
120 bpm (速度 bit per minute)
4/4
--------------------------------------------
♩= (4分音符) = 1bit
♪ = 1/2♩(8分音符) = 1/2bit
♫ = 2 x 1/2♩=1bit
-/↓/↑ = 1/2♩(8分音符) = 1/2bit
♬ = 2 x 1/2 ♪ (16分音符) = 1/2bit
| = 小节线  
数字 = 品位 = ♪
(无音符后缀标记时 
默认时值 = 1/2bit) 
-------------------------------------------
4/4 key=A
Guitar Chord
 Verse :#Fm E
 Chorus :A E #Fm D
 Intro SOLO
E---------------------------------------------------------------------
B--------------------------------------------------------------------------------------
A-----------6-------------------6-----------------6-----------------------------------
D--4-6-7-----4-6---6-4-6-7----6-----4-6-7-----4-6--6-4-6-4--2-4-6---------
A----------------------------------------------------------------------------------
E----------------------------------------------------------------


#striptags#
4/4 key=A
Guitar Chord
 Verse :#Fm E
 Chorus :A E #Fm D
 Intro SOLO
E---------------------------------------------------------------------
B--------------------------------------------------------------------------------------
A-----------6-------------------6-----------------6-----------------------------------
D--4-6-7-----4-6---6-4-6-7----6-----4-6-7-----4-6--6-4-6-4--2-4-6---------
A----------------------------------------------------------------------------------
E----------------------------------------------------------------


#/striptags#


0 s
0 s
+
 
En