+
- » MUSIC » TAB♪ » The End ♪ TAB

The End

最后,我们会一起去海边
(06'13'')



INTRODUCTION


1 = C (root note)
120 bpm (bit per minute)
4/4
--------------------------------------------
♩= (1/4bar note) = 1bit
♪ = 1/2♩(1/8bar note) = 1/2bit
♫ = 2 x 1/2♩=1bit
-/↓/↑ = 1/2♩(1/8bar note) = 1/2bit
♬ = 2 x 1/2 ♪ (1/16bar note) = 1/2bit
| = bar line  
Number = Guitar Pad Position = ♪
(when without appendix mark 
default value = 1/2bit) 
-------------------------------------------
            #code#
4/4 key=A
Guitar Chord
 Verse :#Fm E
 Chorus :A E #Fm D
 Intro SOLO
E---------------------------------------------------------------------
B--------------------------------------------------------------------------------------
A-----------6-------------------6-----------------6-----------------------------------
D--4-6-7-----4-6---6-4-6-7----6-----4-6-7-----4-6--6-4-6-4--2-4-6---------
A----------------------------------------------------------------------------------
E----------------------------------------------------------------


#striptags#
4/4 key=A
Guitar Chord
 Verse :#Fm E
 Chorus :A E #Fm D
 Intro SOLO
E---------------------------------------------------------------------
B--------------------------------------------------------------------------------------
A-----------6-------------------6-----------------6-----------------------------------
D--4-6-7-----4-6---6-4-6-7----6-----4-6-7-----4-6--6-4-6-4--2-4-6---------
A----------------------------------------------------------------------------------
E----------------------------------------------------------------


#/striptags##/code#
        


0 s
0 s
+ (0.076874971389771s)